7 Songs For Beginners

Hi folks, here are 7 perfect songs to kick start any beginner guitarist rocking. I have shared with you a mix of new pop vs classic rock, even a little nursery rhyme for good measure. These songs are all written down on TAB, showing the high e string notes along the top line, and the low E string notes along the bottom line. Remember that TAB IS NOT A MIRROR IMAGE OF THE GUITAR... As many pupils in the early stages seem to make this common mistake, it is actually upside down from how many think TAB is written.

I hope you enjoy learning these classics guitar riffs, please like and share this blog with friends and remember to visit us at www.rockademy.co.uk for more free stuff like this!

Rock on.........

Smoke On the Water

e--0--3--5------0--3--6-5------0--3--5------3--0--------------------

B----------------------------------------------------------------------------

G----------------------------------------------------------------------------

D----------------------------------------------------------------------------

A-----------------------------------------------------------------------------

E-----------------------------------------------------------------------------

Smoke On the Water – 2 strings

e----------------------------------------------------------------------------------

B----------------------------------------------------------------------------------

G--0--3--5------0--3--6-5------0--3--5------3--0-------------------------

D--0--3--5------0--3--6-5------0--3--5------3--0--------------------------

A----------------------------------------------------------------------------------

E----------------------------------------------------------------------------------

Love Yourself

e--4-4----2-2----0-0------------5-5----4-4----2-2-------------------------

B----------------------------------------------------------------------------------

G----------------------------------------------------------------------------------

D----------------------------------------------------------------------------------

A----------------------------------------------------------------------------------

E----------------------------------------------------------------------------------

7 Nation Army

e----------------------------------------------------------------------------------

B--5-----5--8--5--3--2-----0---------------5-----5--8--5--3--2-----0----

G----------------------------------------------------------------------------------

D----------------------------------------------------------------------------------

A----------------------------------------------------------------------------------

E----------------------------------------------------------------------------------

New York City Cops

e----------------------------------------------------------------------------------

B----------------------------------------------------------------------------------

G----------------------------------------------------------------------------------

D----------------------------------------------------------------------------------

A----------------------------------------------------------------------------------

E--5--5--5--5--5--5--5--5--3----0--3----0--3-----------------------------

Mary Had A Little Lamb

e--4--2--0--2--4--4--4-------2--2--2------4--4--4------------------------

B----------------------------------------------------------------------------------

G----------------------------------------------------------------------------------

D----------------------------------------------------------------------------------

A----------------------------------------------------------------------------------

E----------------------------------------------------------------------------------

e--4--2--0--2--4--4--4-------2--2--2------4--2--0------------------------

B----------------------------------------------------------------------------------

G----------------------------------------------------------------------------------

D----------------------------------------------------------------------------------

A----------------------------------------------------------------------------------

E----------------------------------------------------------------------------------

Brainstew (play on top e or low E) ---- WARNING ---- May contain adult language

e----------------------------------------------------------------------------------

B----------------------------------------------------------------------------------

G----------------------------------------------------------------------------------

D----------------------------------------------------------------------------------

A----------------------------------------------------------------------------------

E--5-5-----3-3-----2-2-----1-1-0-0-----------------------------------------

www.rockademy.co.uk - Thanks for reading, please share the love by sharing this blog... Leigh Jones